John Lennon
Well Well Well
Plastic Ono Band (1970)

e --------------------------------------------------------------
B -----------------------------------------------2--------------
G --4^6-6-6-6^4-2----2--4--2-------------2--4^6-----4-2---2--4--  w/ e guit & f# basse
D ----------------4-----------4----2--4-----------------4-------

e ---------------------------------5--2-------------------------
B ---------------------------------------5--2-------------------
G --4^6-6-6-6^4-2----2--4--2------------------4-2-4----2--4--2--  ! ° °
D ----------------4-----------4---------------------4-----------

  e    f#   A(6)     F#m
  Well well well, oh well  x 2  (disto)

I took my loved one out to dinner         w/ intro
So we could get a bite to eat             
And though we both had been much thinner
She looked so beautiful I could eat her   + f#!

  Well well well, oh well  x 2

I took my loved one to a big field
So we could watch the English sky
We both were nervous feeling guilty
And neither one of us knew just why       w/o + f#!

  Well well well, oh well  x 8  w/ solo

  Well well weeeeeeeell, oh well  x 2

  Well well WEEEEEEEEEEEEEEEEELL  x 9

  A (r) a A(r) a f# f# f# f# f# f# f# f# 
  WELL,   WELL

(Intro) \

  Well well well, oh well  x 2  w/ \

We sat and talked of revolution
Just like two liberals in the sun
We talked of women's liberation
And how the hell we could get things done

  Well well well, oh well  x 2

I took my loved one to a big field
So we could watch the English sky
We both were nervous feeling guilty
And neither one of us knew just why

  Well well well, oh well  x 5

  Well well well, well     x 2

  Well, well, hahaha back off baby. That was critical  (?, éfouère)