Metallica
The End Of The Line
Death Magnetic (2008)

F5  E5  G5 G5 E5 (reste)  /f f f e  e g g g e  e d/e  x 4

F5F5F5E5  E5 F5\G5 G5 E5E5E5E5E5E5  x 4

Bb5 A5 C5 C5 A5  C5 B5 D5 D5 B5  E5 (reste)  \

D --------------------------       -------------------5-0----
A -------------------5-0-7--  x 3  -----------------------7--
E --0-0-5/6-0--0-5/6--------       --0-0-5/6-0--0-5/6-------- 

A -------------------5-0-7--  x 3  -----------------------------
E --0-0-5/6-0--0-5/6--------       --0-0-5/6-0-0-0-0-0-0-0-0-0-- 

e e e e A5\Bb5 e e e e A5\Bb5 e e A5\B5  x 5 (embarque 3) 

  e e e e F5 e e e G5 e e e Bb5 e e e

Need, more and more  w/  E5 A --------7-7-7-5-7-7-------- F5 (E5)
Tainted misery              E --0-0-0-------------0-0-0--
Bleed, battle scars

  Chemical affinity
 
Reign, legacy
Innocence corrode
Stain, not away
 
  Catatonic overload

e e e e A5\Bb5 e e e e A5\Bb5 e e A5\B5  x 5 (embarque 3) 

A -------------------5-0-7--  x 3  -----------------------------
E --0-0-5/6-0--0-5/6--------       --0-0-5/6-0-0-0-0-0-0-0-0-0-- 

e e e e A5\Bb5 e e e e A5\Bb5 e e A5\B5  x 5 (embarque 3) 

  e e e e F5 e e e G5 e e e Bb5 e e e

Choke, asphyxia
Snuff reality
Scorch, kill the light
 
 Incinerate celebrity
 
Reaper, butchery
Karma amputee
Bloodline, breeding fine
 
  Death contagious deity
 
e e e e A5\Bb5 e e e e A5\Bb5 e e A5\B5

E --0-5/6--  x 10  w/ Oh yeah

    Hooked into this deceiver      [ e e g e g g e g e e g e g g g g ] (g aigu)
    Need more and more             
    Into the endless fever         [ g -> bb & g ]
    Need more and more             [ g -> c & g  ]
 
    E5           D5/A
    New consequence machine
    C#5/G#       C5/G
    Burn through all your gasoline
    E5     D5/A
    Asylum overtime
    C#5/G#      Bb5 Bb5   Bb5 Bb5 Bb5 F5 
    Never mind, you reach the end of  the liiiine

D --------------------------       -------------------5-0----
A -------------------5-0-7--  x 3  -----------------------7--
E --0-0-5/6-0--0-5/6--------       --0-0-5/6-0--0-5/6-------- 

A -------------------5-0-7--  x 3  -----------------------------
E --0-0-5/6-0--0-5/6--------       --0-0-5/6-0-0-0-0-0-0-0-0-0-- 

e e e e A5\Bb5 e e e e A5\Bb5 e e A5\B5  x 5 (embarque 3) 

  e e e e F5 e e e G5 e e e Bb5 e e e
 
Time, choke the clock
Steal another day
Die, faithfully
 
  Narcissistic fade away
 
Twisted, jump the rail
Shout at the crowd below
Breaker, chase the ghost
  
  The latest high to all time low
  
    Refrain

E5! E5! E5! e g/a g/a  x 4
 
D --------------------------5-7-7-7-5-0-7----
A --5-7-7-7-5-0------------------------------  x 4
E --------------5-7-7-7-5-0---------------0--

D --------------------------4-5-5-5-4-0-5--
A --5-7-7-7-5-0----------------------------  x 8 (7-8e: w/ riff précédent)
E --------------5-7-7-7-5-0----------------

e  e e e e  d f f f e  e d/e  x 2

e  f f f e  e g g g e  e d/e  x 3

F5F5F5E5  E5 F5\G5 G5 E5E5E5E5E5E5  x 8  w/ solo (fin: f f f e  e g g g e  e d/e)

F5  E5  G5 G5 E5 (reste)  /f f f e  e g g g e  e d/e  x 3.5

e e g e g g e g e e g e g g g g  x 11 (g ->: 3e bb, 4e c, 5-7 bb & g, 8e b & a )
                                             9e c & bb, 10e c & bb, 11e f & a  ) 
       
  (9e... E5E5 E5 E5 E5  E5E5 E5 E5 E5  E5E5 E5 E5 E5 E5  E5E5 E5 E5 E5  E5 (reste)) 

e --3--3--3--3--
B --5--3--2--1--  x 2  w/ feedback  
G --4--4--4--4--

Drop the hourglass of time
Spinning sand we will not find
As we gather here today
We bid farewell, the slave becomes the master

(   )  w/ The slave becomes the master

    The slave becomes the master 
    Need more and more
    Right now and ever after
    Need more and more
 
    New consequence machine
    Burn through all your gasoline
    Asylum overtime
    C#5/G#
    Never mind
 
    G5/D     F#5/C#
    Dead hourglass of time
    F5/C    E5/B
    Sand we will not ever find
    G5/D      F#5/C#
    We gather here today
    F5/C                Bb5/F  Bb5/F   Bb5/F Bb5/F Bb5/F F5
    Say goodbye  'cause you've reached the   end   of    the liiiine

A -------------------5-0-7--  x 2 
E --0-0-5/6-0--0-5/6--------      

A -------------------5-0-7--------------  Bb5/F  Bb5/F F5  (e)          x 3
E --0-0-5/6-0--0-5/6--------0--0-5/6-0--  The end    of    the liiiine

A -------------------5-0-7--------------  Bb5/F  Bb5/F   Bb5/F Bb5/F Bb5/F F5  E5 (reste) \
E --0-0-5/6-0--0-5/6--------0--0-5/6-0--  You've reached the   end   of    the liiiine